Tauba Tumhare Yeh Ishaare Guitar Tabs - Chalte Chalte

 

Tauba Tumhare Yeh Ishaare Guitar Tabs

Tauba tumhare yeh ishare
B|--5-5\9-9-7-9-10-12--10-9-

Hum toh deewane hain tumhare 
B|--5-5\9-9-7-9-10-12--10-9-

Raaz yeh kaise khol rahi ho
e|--12/11-9-7-9-9\11-11/9-7-6-7-7-

Tum aakhon se bol rahi ho
e|--12/11-9/7-9-9\11-11/9-7-6-7-7/5/4/2

Jadoo aate hain tumko saare
e|--2-2-2--2\4-2\7-7-9-7/5-4

Tauba tumhare yeh ishare
B|--5-5\9-9-7-9-10-12--10-9-

Hum toh deewane hain tumhare 
B|--5-5\9-9-7-9-10-12--10-9-

Chhu lete ho taar jo dilke
e|--12/11-9-7-9-9\11-11/9-7-6-7-7-

Tum hi batao tumse milke
e|--12/11-9/7-9-9\11-11/9-7-6-7-7/5/4/2-

Jaanu dil koi kyun na haare
e|--2-2-2--2\4-2\7-7-9-7/5-4-

Tauba tumhare yeh ishare
e|----------------------9-7/5\7-4--
B|--5-5\9-9-7-9-10---------------

Solo
G|----------1-1\2--2-1--1-1-1-2-4-4\5-4-2-1-
D|--1\2-4-----------------------------------------

Jism damakta
B|--12-12-11-12-11-12-

Jadoo jadoo
B|--12p11-12-14-12/11-12-

Zulf ghaneri
B|--12-12-11-12-11-12-

Khushboo khushboo
B|--12p11-12-14-12/11-12-

Saansein hamari mehki mehki
e|--10-10-9-10-9/7-9-9p7-9-9-

Nazar tumhari behki behki
e|-------11-11-11\14-11/9/7--11h12-14/11-12-12--
B|--12---------------------------------------------------

Tumhara badan
B|--12-12-7-9\10-9-

Hai jaise chaman
B|--12-12-7-9\10-9\10/9-

Hosh uda de yeh nazare
B|--7-7-7--7\9-7\12--12-14-12/10-9-

Tauba tumhare yeh ishare
B|--5-5\9-9-7-9-10-12--10-9-

Hum toh deewane hain tumhare 
e|----------------------9-7/5\7-4--
B|--5-5\9-9-7-9-10---------------



Click on the link above to watch my cover on YouTube
Thank You!


Amazing Deals on Guitars


      




Comments