Aaj Din Chadheya Guitar Tabs - Love Aaj Kal

Aaj Din Chadheya Guitar Tabs 

Aaj din chadheya 
e|-----------------5-4-2h4p2---
B|--2-3-3\5-5-----------------5-

Tere rang warga
e|--------5-5\7-4/2-2-
B|--2-5----------------

Aaj din chadheya 
e|-----------------5-4-2h4p2---
B|--2-3-3\5-5-----------------5-

Tere rang warga
e|--------5-5\7-4/2-2-
B|--2-5----------------

Phool sa hain khila aaj din
e|-----2------------------------
B|--3---5-5-5-3p2------2----
G|--------------------4-2---4-

Rabba mere din yeh na dhale
B|--2-2-2---------------2--
G|---------4-2-----2-4-----
D|---------------4----------

Woh jo mujhe khwaab mein mile
B|-------2-3-3-2----2--
G|--4-4-----------4-----

Use tu laga de ab gale
B|--2-2-2---------------2--
G|---------4-2-----2-4-----
D|---------------4----------

Tenu dil da waasta
B|----2-2h3-3-2-------
G|--4--------------4-2-

Rabba mere din yeh na dhale
B|--2-2-2---------------2--
G|---------4-2-----2-4-----
D|---------------4----------

Woh jo mujhe khwaab mein mile
e|---------------2---------
B|-------2-3-5------2---
G|--4-4-----------4-----

Use tu laga de ab gale
B|--2-2-2---------------2--
G|---------4-2-----2-4-----
D|---------------4----------

Tenu dil da waasta
B|----2-3-5-----------
G|--4--------4\6-4-2-

Aaj din chadheya 
e|-----------------5-4-2h4p2---
B|--2-3-3\5-5-----------------5-

Tere rang warga
e|--------5-5\7-4/2-2-
B|--2-5----------------

Baksha gunaho ko
B|--2-3-5-5-3-2-

Sunke duao ko
B|--2-3-5-5-3-2-

Rabba pyar hain
B|--2-7-7\10-9-7/5-

Tune sabko hi de diya
B|----------------------7-5-5--
G|--6\7-6\7-6/4-6-7----------

Meri bhi aahon ko
B|--2-3-5-5-3-2-

Sun le duao ko
B|--2-3-5-5-3-2-

Mujhko wo dila
B|--2-7-7\10-9-7/5-

Maine jisko hain dil diya
B|----------------------7-5-5--
G|--6\7-6\7-6/4-6-7----------

Hoo..
B|--10-7h9p7-5/3-

Baksha gunaho ko
B|--2-3-5-5-3-2-

Sunke duao ko
B|--2-3-5-5-3-2-

Rabba pyar hain
B|--2-7-7\10-9-7/5-

Tune sabko hi de diya
B|----------------------7-5-5--
G|--6\7-6\7-6/4-6-7----------

Meri bhi aahon ko
B|--2-3-5-5-3-2-

Sun le duao ko
B|--2-3-5-5-3-2-

Mujhko wo dila
B|--2-7-7\10-9-7/5-

Maine jisko hain dil diya
B|----------------------7-5-5--
G|--6\7-6\7-6/4-6-7----------

Aasman pe aasman
e|--4\5-5-5\7-4-4-4-

Usko de itna bata
e|----------4---------------
B|--5-7-5----7-5-3/2----
G|----------------------4--

Wo jo mujhe dekh ke hase
B|--2-2-2---------------2--
G|---------4-2-----2-4-----
D|---------------4----------

Paana chahu raat din jise
B|-------2-3-3-2----2--
G|--4-4-----------4-----

Rabba mere naam kar usse
B|--2-2-2---------------2--
G|---------4-2-----2-4-----
D|---------------4----------

Tenu dil da waasta
B|----2-3-5-----------
G|--4--------4\6-4-2-

Aaj din chadheya 
e|-----------------5-4-2h4p2---
B|--2-3-3\5-5-----------------5-

Tere rang warga
e|--------5-5\7-4/2-2-
B|--2-5----------------




Click on the video above to watch the lesson on YouTube
Thank You!


Amazing Deals on Guitars


      





Comments