Ae Mere Humsafar Guitar Intro Tabs

 

Ae Mere Humsafar Guitar Intro Tabs

e|--9\10-----------------10-11-10--------------------------
B|------------10-11-13------------13-11-10-11-13-------
G|--------12---------------------------------------------10--

B|--13----------10---------------10-11------
G|------10-12------12-------------------12--
D|------------------------13--13--------------

e|-------------------10--10--
B|------10-11-13-------11--
G|--12------------------------






Click on the link above to watch the lesson on YouTube
Thank You!

Amazing Deals on Guitars


      


Comments