Dil Ko Karaar Aaya Guitar Tabs - Yasser Desai & Neha Kakkar

 

Dil Ko Karaar Aaya Guitar Tabs

Dua bhi lage na mujhe
e|--7-6----6-7-9\11-9-7/6--
B|-------9--------------------

Dawa bhi lage na mujhe
e|--7-6----6-7-9\11-9-7/6--
B|-------9--------------------

Jab se hain dil ko mere 
e|--7-6----6-6-7\9-9h11p9-7/6-
B|-------9--------------------------

Tu laga hain
e|--6h7p6-----------
B|---------9-7-7\9--

Neend raaton ki meri
e|--7-6----6-7-9\11-9-7/6--
B|-------9--------------------

Chahat baaton ki meri
e|--7-6----6-7-9\11-9-7/6--
B|-------9--------------------

Chain ko bhi mere tune
e|--7-6----6-6-7\9-9h11p9-7/6-
B|-------9--------------------------

Yun thaga hain
e|--6h7p6-----------
B|---------9-7-7\9--

Jab saansein bharu main
e|--6\11-11-9\11-11\14-12-11/9-11h12p11-

Band aakhein karu main
e|--11-11h12p11-9\11-11\14-12-11/9-11h12p11-

Nazar tu yaar
e|--6-6\7-7-7\11-9-

Aaya
e|--7/6-6h7p6----6h7-6--
B|---------------9----------

Dil ko karaar aaya
e|--7-6----6-7-9\11/9\11p9--7/6-
B|-------9---------------------------

Tujhpe hain pyaar aaya
e|--7-6----6-7-9\11/9\11p9--7/6-
B|-------9---------------------------

Pehli pehli baar aaya
e|--7-6----6-6-7\9/7\9p7-6-
B|-------9--------------------

O yaara
e|--6h7p6-------------6h7-6-
B|-----------9-6-6\9----------

Dil ko karaar aaya
e|--7-6----6-7-9\11/9\11p9--7/6-
B|-------9---------------------------

Tujhpe hain pyaar aaya
e|--7-6-----6-7-14/11\9-7/6-
B|-------9----------------------

Pehli pehli baar aaya
e|--7-6----6-6-7\9/7\9p7-6-
B|-------9--------------------

O yaara
e|--6h7p6-------------6h7-6-
B|-----------9-6-6\9----------



Click on the link above to watch the lesson on YouTube
Thank You!


Amazing Deals on Guitars


      


Comments