Jaadu Hai Nasha Hai Guitar Tabs - Jism | Shreya Ghoshal

 

Jaadu Hai Nasha Hai Guitar Tabs

Jaadu Hai Nasha Hai
B|--6\8-8-8-8-8\11-9/8-

Madhoshiyan
B|--6\8-8-8-8-8\11/9-

Tujhko bhoolan ke 
B|--6\8-8--8h9p8-8-6-

Ab jaaon kahaan
B|--6h8p6-4/3-4\6-6h8p6-6/4-4-

Jaadu Hai Nasha Hai
B|--6\8-8-8-8-8\11-9/8-

Madhoshiyan
B|--6\8-8-8-8-8\11/9-

Tujhko bhoolan ke 
B|--6\8-8--8h9p8-8-6-

Ab jaaon kahaan
B|--6h8p6-4/3-4\6-6h8p6-6/4-4-

Dekhti hain
B|----8\11-9-8--
G|--8-------------

Jis tarah se
B|----8\11-9-8--
G|--8-------------

Teri nazre mujhe
B|----8\11-9-8/6/4-4-6-
G|--8---------------------

Mai khudko chhupaun kaha
e|-----------8-8-10-6-4-3--
B|--6-9-9-------------------
.
Jaadu hain nasha hai
e|--1\3-3-3-3-6/4-6p4-

Madhoshiyan
B|--6\8-8-8-8-8\11/9-

Tujhko bhoolan ke 
B|--6\8-8--8h9p8-8-6-

Ab jaaon kahaan
B|--6h8p6-4/3-4\6-6h8p6-6/4-4-

Interlude Music

e|--4h6p4-3-

e|--------6-4h6p4-3-
B|--4-6---------------

e|--4h6p4-3-

e|--------6-4-3-4-6-10-8-
B|--4-6--------------------

Yeh pal hai apna
e|--10-11-6/4-4h6p4-3/1-

Toh iss pal ko jee le
e|--8-8-10-6/4-3h4p3-------
B|-------------------------6/4-

Sholo ki tarha
e|--10-11-6/4-4h6p4-3/1-

Zara jal ke jee le
e|--8-8-10-6/4-3h4p3-------
B|-------------------------6/4-

Pal jhapakte
B|----8\11-9-8--
G|--8-------------

Kho na jaana
B|----8\11-9-8--
G|--8-------------

Chhuke kar loon yakin
B|----8\11-9-8/6/4-4-6-
G|--8---------------------

Na jaane pal yeh paaye kaha
e|-----------8-8-10-6-4-3--
B|--6-9-9-------------------

Jaadu hain nasha hai
e|--1\3-3-3-3-6/4-6p4-

Madhoshiyan
B|--6\8-8-8-8-8\11/9-

Tujhko bhoolan ke 
B|--6\8-8--8h9p8-8-6-

Ab jaaon kahaan
B|--6h8p6-4/3-4\6-6h8p6-6/4-4-


Click on the link above to watch my cover on YouTube
Thank You!

Amazing Deals on Guitars


      


Comments