Meri Mehbooba Guitar Tabs - Pardes

 

Meri Mehbooba Guitar Tabs

Kisi roz tumse
B|----10-13-12-10-12-
G|--9--------------------

Mulaqat hogi
B|----9-12-10-9-10-
G|--9-----------------

Kisi roz tumse
B|----10-13-12-10-12-
G|--9--------------------

Mulaqat hogi
B|----9-12-10-9-10-
G|--9-----------------

Meri jaan us din
B|----10-13-12-10-12-
G|--9--------------------

Mere saath hogi
B|----9-12-10-9-10-
G|--9-----------------

Magar kab na jaane
e|-----------12-10-9-10--
B|--10-13-----------------

Ye barsaat hogi
e|-----------12-10-9-10--
B|--12-13-----------------

Mera dil hai pyaasa
e|--12-10-8-7-10/8-8-

Mera dil akela
e|--8-8-7-5-5-7\8/7-

Zara tasveer se tu
B|----10-12-12\13-12-12/10-10\12-
G|--9------------------------------------

Nikal ke saamne aa
B|----10-12-12\13-12-12/10-10\12-
G|--9------------------------------------

Meri mehbooba
B|--9-9-9-10\12-10-

Meri takdeer hai tu
B|----10-12-12\13-12-12/10-10\12-
G|--9------------------------------------

Machalke saamne aa
B|----10-12-12\13-12-12/10-10\12-
G|--9------------------------------------

Meri mehbooba
B|--9-9-9-10\12-10-

Meri mehbooba
e|--12-10-8-10\12-10

Meri mehbooba
e|--12-10-8/7-8\10-8-

Meri mehbooba
e|--10-8-7/5-5\7-7-

Meri mehbooba
B|--9-10-12p10-12\13/12-10-10\12-

Meri mehbooba
B|--9-10-12p10-12\13/12-10-10\12-

Zara tasveer se tu
B|----10-12-12\13-12-12/10-10\12-
G|--9------------------------------------

Nikal ke saamne aa
B|----10-12-12\13-12-12/10-10\12-
G|--9------------------------------------



Click on the link above to watch my cover on YouTube
Thank You!

Amazing Deals on Guitars


      

Comments