Pyar Hua Chupke Se Guitar Tabs - SANAM

 

Pyar Hua Chupke Se Guitar Tabs

Dil ne kaha chupke se
B|--6-7-9----6-6-7-9-
G|----------8-----------

Pyar hua chupke se
B|--6-7-9-4/2-6-6-7-9-

Kyun naye lag rahe hai yeh dharti gagan
e|--9-8-9-7-6-7-6-4-6\7/6-4-2-4-

Maine puchha toh boli yeh pagli pawan
e|--9-8-9\11/9--7-6-7\9/7--6-4-6\7/6-4-2-4-

Pyar hua chupke se
B|--6-7-9----6-6-7-9-
G|----------8-----------

Ye kya hua chupke se
B|--6-7\11-9-6/4\6/2--6-6-7-9-

Kyun naye lag rahe hai yeh dharti gagan
e|--9-8-9-7-6-7-6-4-6\7/6-4-2-4-

Maine puchha toh boli yeh pagli pawan
e|--9-8-9\11/9--7-6-7\9/7--6-4-6\7/6-4-2-4-

Pyar hua chupke se
B|--6-7-9----6-6-7-9-
G|----------8-----------

Ye kya hua chupke se
B|--6-7\11-9-6/4\6/2--6-6-7-9-

Titliyon se suna
e|-------------8-8-9-8\9-
B|--7-4-7-9--------------

Maine kissa baag ka
e|--6\9-8-6-4-4/2-4h6p4-2-

Baag me thi wo kali
e|-------------8-8-9-9/6\9-
B|--7-4-7-9----------------

Sharmili unchhoee
e|--6\9-8-6-4-4h6\9-6-4/2-

ek din manchala bhanwara
e|-------------6-7-6/4\8--8-8-8-6h8p6-4--
B|--7-6-7\9----------------------------------

Aagaya
e|--8-8-9-

Khil uthi wo kali paaya roop naya
e|--9-8-9-7-6-7-6-4-6\7/6-4-2-4-

Puchhti thi kali yeh mujhe kya hua
e|--9-8-9\11/9--7-6-7\9/7--6-4-6\7/6-4-2-4-

Phool hasa chupke se
B|--6-7-9----6-6-7-9-
G|----------8-----------

Pyar hua chupke se
B|--6-7\11-9-6/4\6/2--6-6-7-9-



Click on the link above to watch my cover on YouTube
Thank You!

Amazing Deals on Guitars


      

Comments