Raataan Lambiyan Guitar Tabs - Shershaah

 

Raataan Lambiyan Guitar Tabs

Teri meri gallan ho gayi mashhoor
e|--8-10-10-8-8\10-10-8-10-10-8-10p8-6-

Kar na kabhi tu mujhe nazron se door
e|--6-8-8-6-6\8-8-6-8-8-6-8p6-----
B|-----------------------------------8--

Kitthe chali ae tu 
e|-----6-6-8-8\10-10--
B|--8--------------------

Kitthe chali ae tu 
e|------6-6-8-8\10-10-
B|--8--------------------

Kitthe chali ae
e|----------6-6--
B|--8-8-8-------

Jaanda ae dil yeh toh jaandi ae tu
e|--8-10-10-8-8\10-10-8-10-10-8-10p8-6-

Tere bin main na rahu mere bina tu
e|--6-8-8-10--6-8-8-10--6-8-8-6-8p6---
B|------------------------------------------8-

Kitthe chali ae tu 
e|-----6-6-8-8\10-10--
B|--8--------------------

Kitthe chali ae tu 
e|------6-6-8-8\10-10-
B|--8--------------------

Kitthe chali ae
e|----------6-6--
B|--8-8-8-------

Kaatun kaise raaatan
e|--10-13-13-15-13\15/13-11/10/8-

O saaware
e|-------------10-10h11p10-8--
B|--11/8-11---------------------

Jiya nahin jaata 
e|--10-13-13-15-13\15/13-11/10/8-

Sunn baware
e|-------------10-10h11p10-
B|--11/8-11------------------

Ke raatan lambiyan lambiyan re
B|--11-10-8--8-8-8--8-8-8--8--

Kate tere sangeyan sangeyan re
B|--11-10-8-6-6-6-6-6-6-6--

Ke raatan lambiyan lambiyan re
B|--11-10-8-8-8-10p8-8-8-10p8-8-

Kate tere sangeyan sangeyan re
B|--11-10-8-6-6-8\10-8-6-6---






Click on the video above to watch the lesson on YouTube
Thank You!

Amazing Deals on Guitars


      


Comments