Aao Na Guitar Tabs - Kyun! Ho Gaya Na

 

Aao Na Guitar Tabs


Sargam
B|--9-9-7-9-9-7--9-7--9-10-9-7-

B|--7-7-----7-7-------------
G|--------9-------9--8-9-8-

e|---------------------------7-10--
B|--9-9-9-7-9-9-7-9-10---------

e|--9-10-9-10-9-7-----------------
B|--------------------10-9-7-10-9-

B|--9-9-7-9-9-7--9-7--9-10-9-7-

B|--7-7-----7-7-------------
G|--------9-------9--8-9-8-

e|---------7-10-9-10-9-10-9-7-7--
B|--9-10---------------------------

e|--12-12--12-10-9-7------------------
B|------------------------10-9-7-10-9--

Repeat the whole part once again

Gunji si hain 
B|--9-7\9-7/5-4-

Saari fiza
B|--9-7\9-7/5-4-

Jaise bajti ho shehnaaiyan
e|------7-9-9-12-11p9-9---------
B|--9-----------------------7-7\9-

Lehrati hain
B|--9-7\9-7/5-4-

Mehki hawa
B|--9-7\9-7/5-4-

Gungunti hain tanhaiyaan
e|------7-9-9-12-11p9-9---------
B|--9-----------------------7-7\9-

Sab gaate hai sab hi madhosh hain
e|----------7-7---------9-7-
B|--7-7-9------9-7-7------

Hum tum kyun khamosh hain
B|--7-7-9-9\12-9-7/5-7-

Saa-e-dil chhedo na
e|-----7---------9-----
B|--7----9--7-----9--

Chup ho kyun gaao na
e|------7-7h9-7-6-6h7p6/4-6-6\7--
B|--7----------------------------------

Aao Na Aao Na
e|-----7---------9-----
B|--7----9--7-----9--

Aao Na Aao Na
e|------7-7h9-7-6-6h7p6/4-6-6\7--
B|--7----------------------------------

Sargam
B|--9-9-7-9-9-7--9-7--9-10-9-7-

B|--7-7-----7-7-------------
G|--------9-------9--8-9-8-

e|---------------------------7-10--
B|--9-9-9-7-9-9-7-9-10---------

e|--9-10-9-10-9-7-----------------
B|--------------------10-9-7-10-9-

B|--9-9-7-9-9-7--9-7--9-10-9-7-

B|--7-7-----7-7-------------
G|--------9-------9--8-9-8-

e|---------7-10-9-10-9-10-9-7-7--
B|--9-10---------------------------

e|--12-12--12-10-9-7------------------
B|------------------------10-9-7-10-9--

Tanman me kyu aise behti hui
e|--7\12-12-11-11/9-9---7\12-12-11-9h11p9-
B|------------------------9-------------------------

Thandi si ek aag hain
e|-----------9------------------
B|--10-12----12/9-7-5-7\9--

Hoo..saanson mein hain kaisi yeh raagini
e|--7\12--12-12-11-11/9-9-----7\12-12\14-12-11h12p11-
B|------------------------------9---------------------------------

Dhadkan mein kya raag hain
e|-----------9------------------
B|--10-12----12/9-7-5-9-7-9-

Sun sako dhadkane
e|--9-7-9--7---7--
B|------------9----

Itni paas aao na
e|-------------------------------5\9-
B|--7-7-9-9\12-9-7h9p7/5-------

Sun sako dhadkane
e|--9-7-9--7---7--
B|------------9----

Itni paas aao na
e|-----------7---------
B|--7-7-9----9-7----
G|-----------------9--

Sab gaate hai sab hi madhosh hain
e|----------7-7---------9-7-
B|--7-7-9------9-7-7------

Hum tum kyun khamosh hain
B|--7-7-9-9\12-9-7/5-7-

Saa-e-dil chhedo na
e|-----7---------9-----
B|--7----9--7-----9--

Chup ho kyun gaao na
e|------7-7h9-7-6-6h7p6/4-6-6\7--
B|--7----------------------------------

Aao Na Aao Na
e|-----7---------9-----
B|--7----9--7-----9--

Aao Na Aao Na
e|------7-7h9-7-6-6h7p6/4-6-6\7--
B|--7----------------------------------





Click on the video above to watch my cover on YouTube





Click on the video above to watch the lesson on YouTube
Thank You!

Amazing Deals on Guitars


      



Comments