Haule Haule Ho Jayega Pyar Sargam Guitar Tabs - Rab Ne Bana Di Jodi

 

Haule Haule Ho Jayega Pyar  Sargam Guitar Tabs

e|------------------8------------
B|---------8-8-9-----11-9-8--
G|--8-10-----------------------

e|------------------8------------
B|---------8-8-9-----11-9-8--
G|--8-10-----------------------

B|---------10--10-11-10-11-9-8--
G|--8-10----------------------------

B|--11-13-11--14-13-11--9-11-9--13-11-9-

B|--8h9p8-8--4h6p4-3-6-

e|------------------8------------
B|---------8-8-9-----11-9-8--
G|--8-10-----------------------

e|------------------8------------
B|---------8-8-9-----11-9-8--
G|--8-10-----------------------

B|---------10--10-11-10-11-9-8--
G|--8-10----------------------------

B|--11-13-11--14-13-11--9-11-9--13-11-9-

B|--8h9p8-8--4h6p4-3-6-




Click on the video above to watch the lesson on YouTube
Thank You!

Amazing Deals on Guitars


      



Comments