Dil Leke Dar De Dil Guitar Tabs - Wanted

 

Dil Leke Dar De Dil Guitar Tabs

Dil leke dar de dil 
e|-----3-5-5\7-7p5-3/0-
B|--3---------------------

De gaye hmm..
e|--5-7h8p7-7p5--7p5h7p5--

Dil leke dar de dil 
e|-----3-5-5\7-7p5-3/0-
B|--3---------------------

De gaye
e|--5-7h8p7-7p5-

Tum jaan jaan kehke meri
e|--5-7-7\9-9-9-12-9/7-7-5-5-

Jaan le gaye
e|--5-7-3-3-

Hey hey
e|--8\10-9h10p9-

Humse hamari pehchan 
e|-----3-5-5\7-7p5-3/0-5-
B|--3-----------------------

Le gaye
e|--5-7h8p7-7p5-

Hmm..humse hamari pehchan 
e|----------3-5-5\7-7p5-3/0-5-
B|--6\8-3-----------------------

Le gaye
e|--5-7h8p7-7p5-

Tum jaan jaan kehke meri
e|--5-7-7\9-9-9-12-9/7-7-5-5-

Jaan le gaye
e|--5-7-3-3-

Interlude

e|--5\7-7h9p7-5/3-

e|--3-3-5-3/1-3-

e|--5\7-7h9p7-5/3-

e|--5\7-7h9p7-5/3-

e|--3-3-5-3/1-3-

e|--5\7-7h9p7-5/3-

Humne toh socha na tha
e|-----10-8-8h10-8-5h7-5\7-7h8p7-5/3-
B|--8----------------------------------------

Tum yoon kareeb aaoge
e|--3\5--5-5-5-5-1-3-

Jaane yoon anjane mein
e|-----10-8-8h10-8-5h7-5\7-7h8p7-5/3-
B|--8----------------------------------------

Tum mere ban jaoge
e|--3\5--5-5-5-5-1-3-

Tune chhede taar dil ke
e|-----3-5p3-5-5-8-3-5-5-
B|--6------------------------

Aa chale hum saath milke
e|-----3-5p3-5-5-8-3-5-5-
B|--6------------------------

Aa chale hum saath milke mere sanam
e|-----3-5p3-5-5\8-8-8-8\10-7-7-5-5\7-
B|--6----------------------------------------

Tum dil se khaabon ka jahaan
e|-----3-5-5\7-7p5-3-3/0-5-
B|--3--------------------------

Le gaye hoo..
e|--5-7h8p7-7p5--7p5h7p5--

Humse hamari pehchan 
e|-----3-5-5\7-7p5-3/0-5-
B|--3-----------------------

Le gaye
e|--5-7h8p7-7p5-

Tum jaan jaan kehke meri
e|--5-7-7\9-9-9-12-9/7-7-5-5-

Jaan le gaye
e|--5-7-3-3-






Click on the video above to watch my cover on YouTube
Thank You!


Amazing Deals on Guitars


      



Comments