Kaun Tujhe Guitar Tabs - MS Dhoni (The Untold Story)

 

Kaun Tujhe Guitar Tabs

Tu aata hain seene mein
e|--5-6-5------------------------
B|---------8-6p5--5h6-6\8-8--

Jab jab saansein bharti hoon
B|--8-10-8-6/5-5/3--3\5-5h6-6--

Tere dil ki galiyon se
e|--5-6-5------------------------
B|---------8-6p5--5h6-6\8-8--

Main har roz guzarti hoon
B|--8-10-8-6/5-5-6-5/3-3-3--

Hawa ke jaisa chalta hain tu
e|--5-5h6-5---------------------------
B|------------8-6p5--5h6-6\8-8-8--

Main ret jaise udti hoon
B|--8h10--8h10-8-6/5-5/3--3\5-5h6-6--

Kaun tujhe yun pyar karega
e|--10/5-5-5---------------------------
B|--------------8/5-5\6-6-8-8--------
G|--------------------------------7/5--

Jaise main karti hoon
B|--8h10--8h10p8-6-5h6-5/3-3-3-

Haann..
e|-----------3-5h6-5-3-3--
B|--3-5-6------------------

Haan..
B|--6-5h6p5-3-----
G|----------------5--

Haann..
e|--------------3h5--------------
B|-----3-5-6--------5h6p5-3---
G|--5-----------------------------

Haann..
e|-----------3-5h6p5h6p5--3-3--
B|--3-5-6--------------------------

Haan..
B|--6-5h6p5-3-----
G|----------------5--

Haann..
e|--------------3h5--------------
B|-----3-5-6--------5h6p5-3---
G|--5-----------------------------

Meri nazar ka safar
e|-----5-3-5p3------------
B|--3------------6-5-5\6--

Tujhpe hi aake ruke
e|-----5-3-5p3------------
B|--3------------6-5-6\8--

Kehne ko baaki hai kya
e|-----5-3-5p3-----------------------
B|--3------------6-5-5\6--8p6-5/3--

Kehna tha jo keh chuke
e|-----5-3-5p3------------
B|--3------------6-5-6\8--

Meri nigahein hain
e|--5-6-12-10-8-3-

Teri nigahon pe
e|--3-5-8-6-5-----
B|--------------6---\

Tujhe khabar kya bekhabar
e|--------6-5----------------
B|--6-8-------8-6\8-6-5---

Main tujhse hi chhup chhup kar
e|--5-6-5------------------------
B|---------8-6p5--5h6-6\8-8--

Teri aakhein padhti hoon
B|--8-10-8-6/5-5/3--3\5-5h6-6--

Kaun tujhe yun pyar karega
e|--10/5-5-5---------------------------
B|--------------8/5-5\6-6-8-8--------
G|--------------------------------7/5--

Jaise main karti hoon
B|--8h10--8h10p8-6-5h6-5/3-3-3-

Haann..
e|-----------3-5h6-5-3-3--
B|--3-5-6------------------

Haan..
B|--6-5h6p5-3-----
G|----------------5--

Haann..
e|--------------3h5--------------
B|-----3-5-6--------5h6p5-3---
G|--5-----------------------------

Haann..
e|-----------3-5h6p5h6p5--3-3--
B|--3-5-6--------------------------

Haan..
B|--6-5h6p5-3-----
G|----------------5--

Haann..
e|--------------3h5--------------
B|-----3-5-6--------5h6p5-3---
G|--5-----------------------------







Click on the video above to watch my cover on YouTube
Thank You!


Amazing Deals on Guitars


      



Comments

  1. I am searching for this type of blogs and find yours. This blog is really informative. Keep sharing. Musical Instrument Shops in Delhi

    ReplyDelete

Post a Comment