Dil Kya Kare (Adnan Sami) Guitar Tabs - Salaam-E-Ishq Title Song

 

Dil Kya Kare Guitar Tabs

Sili sili tapti raaton mein
B|--7-8-8-8--8-7-8--7-8-10-

Jalta hoon main barsaton mein
B|--7-8-8-8--8-7-8--7-8-10-

Dooba dooba har pal yaadon mein
B|--7-8-8-8--8-7-8--7-8-10-

Dil Kya Kare
B|--10\15/13-12-10/8-8-

Apne me hi khoya rehta hoon
B|--7-8-8-8--8-7-8--7-8-10-

Kehna hain kuchh kuchh kehta hoon
B|--7-8-8-8--8-7-8--7-8-10-

Pain ajab sa sehta hoon
B|--7-8-8-8--8-7-8--7-8-10-

Dil Kya Kare
B|--10\15/13-12-10/8-8-

Aakhon aakhon mein
e|--8-7-8-10\12-10-

Baaton baaton mein
e|--8-7-8-7-5/3-

Le gaya koi
e|--8-7-8-10\12-10\12-

De gaya koi
e|--8-7-8-7-5/3-

Salaam-e-ishq ishq ishq
e|------------7-------
B|--7---7-8----10--
G|----9--------------

Salaam-e-ishq
B|--7---7-8-
G|----9------



Click on the link above to watch my cover on YouTube
Thank You!

Amazing Deals on Guitars


      


Comments